PDA

View Full Version : shuffle rythm



Guila
02-21-2004, 04:49 PM
well i have some problems playing a shuffle rythm (i think that this is its name) like this:

Eb|----------------------------------------------------|
Bb|----------------------------------------------------|
Gb|----------------------------------------------------|
Db|-7-7-9--7-9-7--7-9-7-9--2-2-4--2-2-4-2----|
Ab|-5-5-5--5-5-5--5-5-5-5--0-0-0--0-0-0-0----|
Eb|----------------------------------------------------|

and most of kiss song are like that like shout it out loud, heavens on fire.
i cant hear it anywhere in the song please help

mjo
02-23-2004, 08:32 PM
Hi, "Eagle"
Your tab confuses me, a bit.
1)-are you tuned down a 1/2 step ?

2)-are you actually trying to play an eighth note shuffle ?
1/8th note shuffle = each interval is struck twice (once per 1/8) and changes at the 1/4 note. Each interval should last an equal amount of time.

......is this a decent explanation ? :confused:

:Mike

Guni
02-23-2004, 09:58 PM
Eagleheart, you might wanna try using the code tags (labeled "#" in the post message window = Insert monospace text into your message) - then tabs align better.

If you quote this post you'll see what it does;)


Eb|----------------------------------------------------|
Bb|----------------------------------------------------|
Gb|----------------------------------------------------|
Db|-7-7-9--7-9-7--7-9-7-9--2-2-4--2-2-4-2----|
Ab|-5-5-5--5-5-5--5-5-5-5--0-0-0--0-0-0-0----|
Eb|----------------------------------------------------|
What's the rhythm to this?

Guni

Guila
02-24-2004, 10:36 AM
im sorry bout that guni.
i dont know what's that name i only wanna know how to play that ;) I'm tuned halsf-step lower cause thats a kiss song called Shout It Out Loud.

Guni
02-24-2004, 12:48 PM
Originally posted by Eagleheart im sorry bout that guni. No worries! - just a little trick to align tabs ...

Lemme see if can find this song ...

G.